ISO-10303-21;
HEADER;
FILE_DESCRIPTION (( 'STEP AP203' ),
    '1' );
FILE_NAME ('MQWP-12.7-514.5.STEP',
    '2020-12-22T09:28:42',
    ( '' ),
    ( '' ),
    'SwSTEP 2.0',
    'SolidWorks 2020',
    '' );
FILE_SCHEMA (( 'CONFIG_CONTROL_DESIGN' ));
ENDSEC;

DATA;
#1 = FACE_OUTER_BOUND ( 'NONE', #59, .T. ) ;
#2 = CALENDAR_DATE ( 2020, 22, 12 ) ;
#3 = EDGE_CURVE ( 'NONE', #41, #173, #156, .T. ) ;
#4 = PERSON_AND_ORGANIZATION ( #164, #57 ) ;
#5 = VECTOR ( 'NONE', #91, 1000.000000000000000 ) ;
#6 = AXIS2_PLACEMENT_3D ( 'NONE', #76, #35, #75 ) ;
#7 = CALENDAR_DATE ( 2020, 22, 12 ) ;
#8 = APPROVAL_PERSON_ORGANIZATION ( #14, #170, #142 ) ;
#9 = CIRCLE ( 'NONE', #93, 3.000000000000000000 ) ;
#10 = CARTESIAN_POINT ( 'NONE',  ( 0.000000000000000000, 3.673940397442059868E-16, -3.000000000000000000 ) ) ;
#11 = CARTESIAN_POINT ( 'NONE',  ( 0.9999999999999995559, 0.000000000000000000, 3.000000000000000000 ) ) ;
#12 = ORIENTED_EDGE ( 'NONE', *, *, #126, .T. ) ;
#13 = PLANE ( 'NONE',  #116 ) ;
#14 = PERSON_AND_ORGANIZATION ( #164, #57 ) ;
#15 = EDGE_CURVE ( 'NONE', #173, #41, #55, .T. ) ;
#16 = PRODUCT ( 'MQWP-12.7-514.5', 'MQWP-12.7-514.5', '', ( #102 ) ) ;
#17 = DIRECTION ( 'NONE',  ( 0.000000000000000000, 0.000000000000000000, 1.000000000000000000 ) ) ;
#18 = EDGE_CURVE ( 'NONE', #151, #96, #9, .T. ) ;
#19 = CALENDAR_DATE ( 2020, 22, 12 ) ;
#20 = APPROVAL_PERSON_ORGANIZATION ( #70, #100, #45 ) ;
#21 = APPROVAL_STATUS ( 'not_yet_approved' ) ;
#22 = ORIENTED_EDGE ( 'NONE', *, *, #15, .F. ) ;
#23 = DIRECTION ( 'NONE',  ( -1.000000000000000000, -0.000000000000000000, -0.000000000000000000 ) ) ;
#24 = DIRECTION ( 'NONE',  ( -1.000000000000000000, -0.000000000000000000, -0.000000000000000000 ) ) ;
#25 = CARTESIAN_POINT ( 'NONE',  ( 0.000000000000000000, 0.000000000000000000, 0.000000000000000000 ) ) ;
#26 = ORIENTED_EDGE ( 'NONE', *, *, #139, .F. ) ;
#27 = CARTESIAN_POINT ( 'NONE',  ( 0.9999999999999997780, 3.000000000000000000, 0.000000000000000000 ) ) ;
#28 = CALENDAR_DATE ( 2020, 22, 12 ) ;
#29 =( NAMED_UNIT ( * ) PLANE_ANGLE_UNIT ( ) SI_UNIT ( $, .RADIAN. ) );
#30 = APPROVAL_STATUS ( 'not_yet_approved' ) ;
#31 = PERSON_AND_ORGANIZATION ( #164, #57 ) ;
#32 = PERSON_AND_ORGANIZATION_ROLE ( 'creator' ) ;
#33 = ADVANCED_FACE ( 'NONE', ( #172 ), #36, .T. ) ;
#34 = DIRECTION ( 'NONE',  ( 0.000000000000000000, 0.000000000000000000, 1.000000000000000000 ) ) ;
#35 = DIRECTION ( 'NONE',  ( 1.000000000000000000, 0.000000000000000000, 0.000000000000000000 ) ) ;
#36 = CYLINDRICAL_SURFACE ( 'NONE', #78, 3.000000000000000000 ) ;
#37 = CC_DESIGN_PERSON_AND_ORGANIZATION_ASSIGNMENT ( #174, #157, ( #16 ) ) ;
#38 = DIRECTION ( 'NONE',  ( -1.000000000000000000, 0.000000000000000000, -0.000000000000000000 ) ) ;
#39 = VECTOR ( 'NONE', #23, 1000.000000000000000 ) ;
#40 = PERSON_AND_ORGANIZATION_ROLE ( 'design_supplier' ) ;
#41 = VERTEX_POINT ( 'NONE', #150 ) ;
#42 = EDGE_CURVE ( 'NONE', #151, #173, #73, .T. ) ;
#43 = APPROVAL_ROLE ( '' ) ;
#44 = ORIENTED_EDGE ( 'NONE', *, *, #139, .T. ) ;
#45 = APPROVAL_ROLE ( '' ) ;
#46 = CARTESIAN_POINT ( 'NONE',  ( 2.449293598294706907E-16, 0.000000000000000000, 0.000000000000000000 ) ) ;
#47 = PLANE ( 'NONE',  #6 ) ;
#48 = EDGE_LOOP ( 'NONE', ( #120, #119 ) ) ;
#49 = CARTESIAN_POINT ( 'NONE',  ( 0.000000000000000000, 0.000000000000000000, 3.000000000000000000 ) ) ;
#50 = LOCAL_TIME ( 17, 28, 42.00000000000000000, #104 ) ;
#51 = AXIS2_PLACEMENT_3D ( 'NONE', #123, #175, #159 ) ;
#52 = COORDINATED_UNIVERSAL_TIME_OFFSET ( 8, 0, .AHEAD. ) ;
#53 = LOCAL_TIME ( 17, 28, 42.00000000000000000, #52 ) ;
#54 = COORDINATED_UNIVERSAL_TIME_OFFSET ( 8, 0, .AHEAD. ) ;
#55 = CIRCLE ( 'NONE', #86, 3.000000000000000000 ) ;
#56 = PERSON_AND_ORGANIZATION ( #164, #57 ) ;
#57 = ORGANIZATION ( 'UNSPECIFIED', 'UNSPECIFIED', '' ) ;
#58 = DIRECTION ( 'NONE',  ( 0.000000000000000000, 0.000000000000000000, 1.000000000000000000 ) ) ;
#59 = EDGE_LOOP ( 'NONE', ( #12, #155, #138, #26 ) ) ;
#60 = ADVANCED_BREP_SHAPE_REPRESENTATION ( 'MQWP-12.7-514.5', ( #169, #51 ), #118 ) ;
#61 = CC_DESIGN_PERSON_AND_ORGANIZATION_ASSIGNMENT ( #147, #131, ( #72 ) ) ;
#62 = EDGE_LOOP ( 'NONE', ( #136, #111, #44, #22 ) ) ;
#63 = AXIS2_PLACEMENT_3D ( 'NONE', #88, #101, #17 ) ;
#64 = APPROVAL_STATUS ( 'not_yet_approved' ) ;
#65 = LINE ( 'NONE', #49, #5 ) ;
#66 = COORDINATED_UNIVERSAL_TIME_OFFSET ( 8, 0, .AHEAD. ) ;
#67 = PERSON_AND_ORGANIZATION ( #164, #57 ) ;
#68 = UNCERTAINTY_MEASURE_WITH_UNIT (LENGTH_MEASURE( 1.000000000000000082E-05 ), #140, 'distance_accuracy_value', 'NONE');
#69 = CC_DESIGN_APPROVAL ( #148, ( #72 ) ) ;
#70 = PERSON_AND_ORGANIZATION ( #164, #57 ) ;
#71 = APPLICATION_CONTEXT ( 'configuration controlled 3d designs of mechanical parts and assemblies' ) ;
#72 = PRODUCT_DEFINITION_FORMATION_WITH_SPECIFIED_SOURCE ( 'ANY', '', #16, .NOT_KNOWN. ) ;
#73 = LINE ( 'NONE', #10, #39 ) ;
#74 = FACE_OUTER_BOUND ( 'NONE', #85, .T. ) ;
#75 = DIRECTION ( 'NONE',  ( 0.000000000000000000, 0.000000000000000000, -1.000000000000000000 ) ) ;
#76 = CARTESIAN_POINT ( 'NONE',  ( 1.224646799147353454E-16, 3.000000000000000000, 0.000000000000000000 ) ) ;
#77 = APPLICATION_PROTOCOL_DEFINITION ( 'international standard', 'config_control_design', 1994, #71 ) ;
#78 = AXIS2_PLACEMENT_3D ( 'NONE', #25, #24, #110 ) ;
#79 = CC_DESIGN_PERSON_AND_ORGANIZATION_ASSIGNMENT ( #56, #107, ( #171 ) ) ;
#80 = APPROVAL_DATE_TIME ( #108, #170 ) ;
#81 = CC_DESIGN_DATE_AND_TIME_ASSIGNMENT ( #95, #117, ( #171 ) ) ;
#82 = DIRECTION ( 'NONE',  ( -1.000000000000000000, -0.000000000000000000, -0.000000000000000000 ) ) ;
#83 = ORIENTED_EDGE ( 'NONE', *, *, #3, .T. ) ;
#84 = ORIENTED_EDGE ( 'NONE', *, *, #15, .T. ) ;
#85 = EDGE_LOOP ( 'NONE', ( #83, #84 ) ) ;
#86 = AXIS2_PLACEMENT_3D ( 'NONE', #122, #82, #58 ) ;
#87 = APPLICATION_PROTOCOL_DEFINITION ( 'international standard', 'config_control_design', 1994, #113 ) ;
#88 = CARTESIAN_POINT ( 'NONE',  ( 0.000000000000000000, 0.000000000000000000, 0.000000000000000000 ) ) ;
#89 = ADVANCED_FACE ( 'NONE', ( #74 ), #47, .F. ) ;
#90 = LOCAL_TIME ( 17, 28, 42.00000000000000000, #66 ) ;
#91 = DIRECTION ( 'NONE',  ( -1.000000000000000000, -0.000000000000000000, -0.000000000000000000 ) ) ;
#92 = PRODUCT_RELATED_PRODUCT_CATEGORY ( 'detail', '', ( #16 ) ) ;
#93 = AXIS2_PLACEMENT_3D ( 'NONE', #98, #133, #135 ) ;
#94 = SECURITY_CLASSIFICATION_LEVEL ( 'unclassified' ) ;
#95 = DATE_AND_TIME ( #7, #90 ) ;
#96 = VERTEX_POINT ( 'NONE', #11 ) ;
#97 = DIRECTION ( 'NONE',  ( -1.000000000000000000, -0.000000000000000000, -0.000000000000000000 ) ) ;
#98 = CARTESIAN_POINT ( 'NONE',  ( 0.9999999999999995559, 0.000000000000000000, 0.000000000000000000 ) ) ;
#99 = DIRECTION ( 'NONE',  ( -1.000000000000000000, -0.000000000000000000, -0.000000000000000000 ) ) ;
#100 = APPROVAL ( #30, 'UNSPECIFIED' ) ;
#101 = DIRECTION ( 'NONE',  ( -1.000000000000000000, -0.000000000000000000, -0.000000000000000000 ) ) ;
#102 = MECHANICAL_CONTEXT ( 'NONE', #113, 'mechanical' ) ;
#103 = CARTESIAN_POINT ( 'NONE',  ( 0.9999999999999995559, 3.673940397442059868E-16, -3.000000000000000000 ) ) ;
#104 = COORDINATED_UNIVERSAL_TIME_OFFSET ( 8, 0, .AHEAD. ) ;
#105 = DATE_AND_TIME ( #19, #143 ) ;
#106 = CIRCLE ( 'NONE', #134, 3.000000000000000000 ) ;
#107 = PERSON_AND_ORGANIZATION_ROLE ( 'classification_officer' ) ;
#108 = DATE_AND_TIME ( #28, #50 ) ;
#109 = CALENDAR_DATE ( 2020, 22, 12 ) ;
#110 = DIRECTION ( 'NONE',  ( 0.000000000000000000, 0.000000000000000000, 1.000000000000000000 ) ) ;
#111 = ORIENTED_EDGE ( 'NONE', *, *, #18, .T. ) ;
#112 = LOCAL_TIME ( 17, 28, 42.00000000000000000, #145 ) ;
#113 = APPLICATION_CONTEXT ( 'configuration controlled 3d designs of mechanical parts and assemblies' ) ;
#114 = FACE_OUTER_BOUND ( 'NONE', #48, .T. ) ;
#115 = CC_DESIGN_PERSON_AND_ORGANIZATION_ASSIGNMENT ( #67, #32, ( #162 ) ) ;
#116 = AXIS2_PLACEMENT_3D ( 'NONE', #27, #38, #125 ) ;
#117 = DATE_TIME_ROLE ( 'classification_date' ) ;
#118 =( GEOMETRIC_REPRESENTATION_CONTEXT ( 3 ) GLOBAL_UNCERTAINTY_ASSIGNED_CONTEXT ( ( #68 ) ) GLOBAL_UNIT_ASSIGNED_CONTEXT ( ( #140, #29, #141 ) ) REPRESENTATION_CONTEXT ( 'NONE', 'WORKASPACE' ) );
#119 = ORIENTED_EDGE ( 'NONE', *, *, #18, .F. ) ;
#120 = ORIENTED_EDGE ( 'NONE', *, *, #126, .F. ) ;
#121 = CC_DESIGN_SECURITY_CLASSIFICATION ( #171, ( #72 ) ) ;
#122 = CARTESIAN_POINT ( 'NONE',  ( 2.449293598294706907E-16, 0.000000000000000000, 0.000000000000000000 ) ) ;
#123 = CARTESIAN_POINT ( 'NONE',  ( 0.000000000000000000, 0.000000000000000000, 0.000000000000000000 ) ) ;
#124 = CC_DESIGN_APPROVAL ( #170, ( #162 ) ) ;
#125 = DIRECTION ( 'NONE',  ( -0.000000000000000000, 0.000000000000000000, 1.000000000000000000 ) ) ;
#126 = EDGE_CURVE ( 'NONE', #96, #151, #106, .T. ) ;
#127 = SHAPE_DEFINITION_REPRESENTATION ( #158, #60 ) ;
#128 = DATE_AND_TIME ( #2, #53 ) ;
#129 = CC_DESIGN_DATE_AND_TIME_ASSIGNMENT ( #128, #146, ( #162 ) ) ;
#130 = APPROVAL_DATE_TIME ( #166, #100 ) ;
#131 = PERSON_AND_ORGANIZATION_ROLE ( 'creator' ) ;
#132 = CC_DESIGN_PERSON_AND_ORGANIZATION_ASSIGNMENT ( #4, #40, ( #72 ) ) ;
#133 = DIRECTION ( 'NONE',  ( -1.000000000000000000, -0.000000000000000000, -0.000000000000000000 ) ) ;
#134 = AXIS2_PLACEMENT_3D ( 'NONE', #137, #99, #160 ) ;
#135 = DIRECTION ( 'NONE',  ( 0.000000000000000000, 0.000000000000000000, 1.000000000000000000 ) ) ;
#136 = ORIENTED_EDGE ( 'NONE', *, *, #42, .F. ) ;
#137 = CARTESIAN_POINT ( 'NONE',  ( 0.9999999999999995559, 0.000000000000000000, 0.000000000000000000 ) ) ;
#138 = ORIENTED_EDGE ( 'NONE', *, *, #3, .F. ) ;
#139 = EDGE_CURVE ( 'NONE', #96, #41, #65, .T. ) ;
#140 =( LENGTH_UNIT ( ) NAMED_UNIT ( * ) SI_UNIT ( .MILLI., .METRE. ) );
#141 =( NAMED_UNIT ( * ) SI_UNIT ( $, .STERADIAN. ) SOLID_ANGLE_UNIT ( ) );
#142 = APPROVAL_ROLE ( '' ) ;
#143 = LOCAL_TIME ( 17, 28, 42.00000000000000000, #54 ) ;
#144 = CYLINDRICAL_SURFACE ( 'NONE', #63, 3.000000000000000000 ) ;
#145 = COORDINATED_UNIVERSAL_TIME_OFFSET ( 8, 0, .AHEAD. ) ;
#146 = DATE_TIME_ROLE ( 'creation_date' ) ;
#147 = PERSON_AND_ORGANIZATION ( #164, #57 ) ;
#148 = APPROVAL ( #21, 'UNSPECIFIED' ) ;
#149 = DESIGN_CONTEXT ( 'detailed design', #71, 'design' ) ;
#150 = CARTESIAN_POINT ( 'NONE',  ( 2.449293598294706907E-16, 0.000000000000000000, 3.000000000000000000 ) ) ;
#151 = VERTEX_POINT ( 'NONE', #103 ) ;
#152 = CLOSED_SHELL ( 'NONE', ( #154, #33, #167, #89 ) ) ;
#153 = APPROVAL_PERSON_ORGANIZATION ( #31, #148, #43 ) ;
#154 = ADVANCED_FACE ( 'NONE', ( #1 ), #144, .T. ) ;
#155 = ORIENTED_EDGE ( 'NONE', *, *, #42, .T. ) ;
#156 = CIRCLE ( 'NONE', #168, 3.000000000000000000 ) ;
#157 = PERSON_AND_ORGANIZATION_ROLE ( 'design_owner' ) ;
#158 = PRODUCT_DEFINITION_SHAPE ( 'NONE', 'NONE',  #162 ) ;
#159 = DIRECTION ( 'NONE',  ( 1.000000000000000000, 0.000000000000000000, 0.000000000000000000 ) ) ;
#160 = DIRECTION ( 'NONE',  ( 0.000000000000000000, 0.000000000000000000, 1.000000000000000000 ) ) ;
#161 = CARTESIAN_POINT ( 'NONE',  ( 2.449293598294706907E-16, 3.673940397442059868E-16, -3.000000000000000000 ) ) ;
#162 = PRODUCT_DEFINITION ( 'UNKNOWN', '', #72, #149 ) ;
#163 = APPROVAL_DATE_TIME ( #105, #148 ) ;
#164 = PERSON ( 'UNSPECIFIED', 'UNSPECIFIED', 'UNSPECIFIED', ('UNSPECIFIED'), ('UNSPECIFIED'), ('UNSPECIFIED') ) ;
#165 = CC_DESIGN_APPROVAL ( #100, ( #171 ) ) ;
#166 = DATE_AND_TIME ( #109, #112 ) ;
#167 = ADVANCED_FACE ( 'NONE', ( #114 ), #13, .F. ) ;
#168 = AXIS2_PLACEMENT_3D ( 'NONE', #46, #97, #34 ) ;
#169 = MANIFOLD_SOLID_BREP ( 'Ðý×', #152 ) ;
#170 = APPROVAL ( #64, 'UNSPECIFIED' ) ;
#171 = SECURITY_CLASSIFICATION ( '', '', #94 ) ;
#172 = FACE_OUTER_BOUND ( 'NONE', #62, .T. ) ;
#173 = VERTEX_POINT ( 'NONE', #161 ) ;
#174 = PERSON_AND_ORGANIZATION ( #164, #57 ) ;
#175 = DIRECTION ( 'NONE',  ( 0.000000000000000000, 0.000000000000000000, 1.000000000000000000 ) ) ;
ENDSEC;
END-ISO-10303-21;
